Autodistruzione Cerebrale II (musica metal, punk, rock, dark...)

Reply

Nirvana - Polly (accordi), Bass Tab

« Older   Newer »
.Wolfpack.
view post Posted on 13/3/2009, 15:04 Citazione




Nirvana - Polly (accordi), Bass Tab




Verse
|----------------------------------------
|----------------------------------------
|-----------------5--5--3--3--3/2--------
|---0--0--3--3---------------------------
Polly wants a cracker...



Chorus
|----------------------------------------
|----------------------------------------
|--5--5--3--3---------1--1--1--1---------
|-----------------3--3-------------------
Isn't me...
 
Top
0 replies since 13/3/2009, 15:04
 
Reply